Табы

В разделе можно найти табы к некоторым песням.

Альбом "Иллюзия: Майя":

Снаружи всех измерений

Вся песня основана на 4 аккордах, но периодически они обыгрываются несколько по-разному.
1ый куплет играется Palm/mute (в смысле чесом)

e-----------------------------------------------------------------------------------------|
B-----------------------------------------------------------------------------------------|
G-----------------------------------------------------------------------------------------|
D-5-5-5-5-5-5-5-5-—2-2-2-2-2-2-2-2--10-10-10-10-10-10-10-10--7-7-7-7-7-7-7-7--------------|
A-5-5-5-5-5-5-5-5--2-2-2-2-2-2-2-2--10-10-10-10-10-10-10-10--7-7-7-7-7-7-7-7--------------|
D-5-5-5-5-5-5-5-5--2-2-2-2-2-2-2-2--10-10-10-10-10-10-10-10--7-7-7-7-7-7-7-7--------------|

Перед припевом (уже чистым)
e--------------------------|
B--------------------------|
G--9--9--9--9--9-9-9-9-----|
D--7--7--7--7--7-7-7-7-----|
A--7--7--7--7--7-7-7-7-----|
D--7--7--7--7--7-7-7-7-----|

Припев
e-----------------------------------------------------------------------------------------|
B-----------------------------------------------------------------------------------------|
G-----------------------------------------------------------------------------------------|
D-5-5-5-5-5-5-5-5-—2-2-2-2-2-2-2-2--10-10-10-10-10-10-10-10--7-7-7-7-7-7-7-7--------------|
A-5-5-5-5-5-5-5-5--2-2-2-2-2-2-2-2--10-10-10-10-10-10-10-10--7-7-7-7-7-7-7-7--------------|
D-5-5-5-5-5-5-5-5--2-2-2-2-2-2-2-2--10-10-10-10-10-10-10-10--7-7-7-7-7-7-7-7--------------|

2ой куплет

e-----------------------------------------------------------------------------------------|
B-----------------------------------------------------------------------------------------|
G-7-7-7-7-7-7-7-7--4-4-4-4-4-4-4-4--12-12-12-12-12-12-12-12--9-9-9-9-9-9-9-9--------------|
D-5-5-5-5-5-5-5-5-—2-2-2-2-2-2-2-2--10-10-10-10-10-10-10-10--7-7-7-7-7-7-7-7--------------|
A-5-5-5-5-5-5-5-5--2-2-2-2-2-2-2-2--10-10-10-10-10-10-10-10--7-7-7-7-7-7-7-7--------------|
D-5-5-5-5-5-5-5-5--2-2-2-2-2-2-2-2--10-10-10-10-10-10-10-10--7-7-7-7-7-7-7-7--------------|

3ий куплет
по удару на аккорд
"Я не чувствую прикосновений....."
e----------------------------------|                          
B----------------------------------|
G-7------4------12------9----------|
D-5------2------10------7----------|
A-5------2------10------7----------|
D-5------2------10------7----------|   

и как обычно...
e-----------------------------------------------------------------------------------------|
B-----------------------------------------------------------------------------------------|
G-7-7-7-7-7-7-7-7--4-4-4-4-4-4-4-4--12-12-12-12-12-12-12-12--9-9-9-9-9-9-9-9--------------|
D-5-5-5-5-5-5-5-5-—2-2-2-2-2-2-2-2--10-10-10-10-10-10-10-10--7-7-7-7-7-7-7-7--------------|
A-5-5-5-5-5-5-5-5--2-2-2-2-2-2-2-2--10-10-10-10-10-10-10-10--7-7-7-7-7-7-7-7--------------|
D-5-5-5-5-5-5-5-5--2-2-2-2-2-2-2-2--10-10-10-10-10-10-10-10--7-7-7-7-7-7-7-7--------------|

На празднике Бон

Интро/Куплет:
e-------------------------------------------------------------------------------------------------------|
B-------------------------------------------------------------------------------------------------------|
G-------------------------------------------------------------------------------------------------------|
D---0---0---0---0—--0--3--3--3--3-----------------------------------------------------------------------|
A---0---0---0---0---0--3--3--3--3-----------------------------------------------------------------------|
D---0---0---0---0---0—-3--3--3--3-----------------------------------------------------------------------|

если играть в акустике то можно поиграть белее полными аккордами, то есть вот так:

e--------------------------------------------------------------------------------------------------------|
B--------------------------------------------------------------------------------------------------------|
G---2---2---2---2---2--5--5--5--5------------------------------------------------------------------------|
D---0---0---0---0—--0--3--3--3--3------------------------------------------------------------------------|
A---0---0---0---0---0--3--3--3--3------------------------------------------------------------------------|
D---0---0---0---0---0—-3--3--3--3------------------------------------------------------------------------|

Припев:
"Не было слов...."
e-----------------------------------------------------------------|       
B-----------------------------------------------------------------|       
G-----------------------------------------------------------------|
D---10---10---10---10--10--10--0---0---0---0---0—-3--3--3--3------|
A---10---10---10---10--10--10--0---0---0---0---0—-3--3--3--3------|
D---10---10---10---10--10--10--0---0---0---0---0—-3--3--3--3------|

"Я так хотел быть молодым на празднике"
e-----------------------------------------------------------------|       
B-----------------------------------------------------------------|       
G-----------------------------------------------------------------| 
D---10---10---10---10--10--10--0---0---0---0---0—-----------------|
A---10---10---10---10--10--10--0---0---0---0---0—-----------------|
D---10---10---10---10--10--10--0---0---0---0---0—-----------------|    переход на куплет "Боооооон"

или также соответсвенно более полными аккордами (по аналогии с куплетом).....
извините, но соло на ситаре пока не будет.

Альбом "Корабль бумажный":

Корабль Бумажный

Интро/Куплет:

e--------------------------------------------------------------------------------------------------------|
B-------------------------------------------------------------------------------------------------------|
D------0-------0---------0----------------------------------------------------------------------------|
D---------2------2----2----2----2-------------1------------1-1--------------------------------------|
A----0-------0-------0---------0---------3------------3--------3------------------------------------|
D--------------------------------------\3-----3-----\3-----3-------------------------------------------|
Перед припевом маааааленький переходик
e|--------------|
B|-------------|
G------7------|
D------5------| несколько раз
A------5------|
D------5------|

Припев:
«Пусть меня туда везет………….»
аккорды
e-------------------------------------|
B------------------------------------|
G-----5------12------9------7------|
D-----3------10------7------5------|
A-----3------10------7------5------|
D-----3------10------7------5------|

e---------------|
B--------------|
«Только бы вернуться домой»
G-----5-------|
D-----3-------|
A-----3-------|
D-----3-------|

Альбом "Качели":

Нечаянно

Интро/Куплет:
e-------------0--0--0-0-0-0-0-------------0--0--0-0-0-0-0------------0--0--0--0--0--0--0------------0--0--0--0--0--0--0----|
B-------------5--5--5-5-5-5-5-------------5--5--5-5-5-5-5------------5--5--5--5--5--5--5------------5--5--5--5--5--5--5----|
G-------------6--6--6-6-6-6-6-------------6--6--6-6-6-6-6------------6--6--6--6--6--6--6------------6--6--6--6--6--6--6----|
D---7---7--х--0--0—-0-0-0-0-0--7---7--х---0--0--0-0-0-0-0--5---5--x--5--5--5--5--5--5--5--5---5--x--5--5--5--5--5--5--5----|
A---5---5--х-------------------5---5--х---0--0--0-0-0-0-0--5---5--x--------------------------------------------------------|
D---0---0--х------—------------0-- 0--x--------------------5---5--x--------------------------------------------------------|

Припев:
(ритм на слух)
e-----------------------------------------------------------------------------------------|
B-----------------------------------------------------------------------------------------|
G-----------------------------------------------------------------------------------------|
D-5-5-5-5-5-5-5-5-—7-7-7-7-7-7-7-7--3-3-3-3-3-3-3-3--2-2x/7-7-2-2-2-2-2-2-2---------------|
A-5-5-5-5-5-5-5-5-—7-7-7-7-7-7-7-7--3-3-3-3-3-3-3-3--2-2x/7-7-2-2-2-2-2-2-2---------------|
D-5-5-5-5-5-5-5-5--7-7-7-7-7-7-7-7--3-3-3-3-3-3-3-3--2-2x/7-7-2-2-2-2-2-2-2---------------|

Аутро(концовка): "НЕЕЕЕЕЕЕЕЕЕТ!!!!НЕЧАяННО!!!!!!!"
e----------------------------------------------------------------------|
B----------------------------------------------------------------------|
G----------------------------------------------------------------------| 
D-0--0-0-2-3-2-0-2-3-8-8-8-8--5--5-х--5-5-5-6-6-6-6--------------------|                                                  6--6--6---0--
A-0--0-0-2-3-2-0-2-3-8-8-8-8--5--5-х--5-5-5-6-6-6-6--------------------|  много раз  потом замедление на последних нотах  6--6--6---0--
D-0--0-0-2-3-2-0-2-3-8-8-8-8--5--5-х--5-5-5-6-6-6-6--------------------|                                      и конец     6--6--6---0--

Е.А.

Интро:
e----------------------------------------------------------------------------------------------|
B----------------------------------------------------------------------------------------------|
G--9--9-9---9--9-9--9-9-9-9--7--7-7---6--6-6--6-6-6-6------------------------------------------|
D--7--7-7-x-6--6-6--6-6-6-6--5--5-5-x-4--4-4--4-4-4-4------------------------------------------|
A--7--7-7-x-6--6-6--6-6-6-6--5--5-5-x-4--4-4--4-4-4-4------------------------------------------|
D--7--7-7-x-6--6-6--6-6-6-6--5--5-5-x-4--4-4--4-4-4-4------------------------------------------|

Куплет:

"Все грани......."
e--0--0---0---0--0-0-0-0-0---------------------------------------------------------------------|
B--0--0---0---0--0-0-0-0-0---------------------------------------------------------------------|
G--5--5--5/9--9--9-9-9-9-9---------------------------------------------------------------------|
D--3--3--3/7--7--7-7-7-7-7---------------------------------------------------------------------|
A--3--3--3/7--7--7-7-7-7-7---------------------------------------------------------------------|
D--3--3--3/7--7--7-7-7-7-7---------------------------------------------------------------------|

"Память не хочет спать....."

Играете 1 аккорд:
e----0---------|
B----3---------|
G----2---------|
D----3---------|    много раз
A----0---------|
D--------------|

"Дальше своих красных глаз..."
e----------------------------------------------------------|
B----------------------------------------------------------|
G--9--9---5--5-5--5-5--9--9---4--4-4--4-4------------------|
D--7--7-x-3--3-3--3-3--7--7-x-2--2-2--2-2------------------|
A--7--7-x-3--3-3--3-3--7--7-x-2--2-2--2-2------------------|
D--7--7-x-3--3-3--3-3--7--7-x-2--2-2--2-2------------------|

Припев:
1ая часть
"Е.А., считай меня...."
e-------------------------------------------|
B-------------------------------------------|
G--9--9-9----4--4-4--4-4-4-4----------------|
D--7--7-7-x--2--2-2--2-2-2-2----------------|
A--7--7-7-x--2--2-2--2-2-2-2----------------|
D--7--7-7-x--2--2-2--2-2-2-2----------------|   3 раза

2ая часть
Ckолько слабых душ"
e------------0--0-0-0-0--------------|
B------------3--3-3-3-3--------------|
G--5--5-5-5--2--2-2-2-2--------------|
D--3--3-3-3--3--3-3-3-3--------------|
A--3--3-3-3--0--0-0-0-0--------------|
D--3--3-3-3--------------------------|     1раз

Во 2ом и 3ем припевах, где добавляется "стать слепым.....ла-ла-ла и тд)))" играете части 1 и 2 по очереди

то есть вот так:
    С та т ь   с л е п ы м     Пусть убивает дым
e----------------------------------------0--0-0-0-0--------------------|
B----------------------------------------3--3-3-3-3--------------------|
G--9--9-9----4--4-4--4-4-4-4---5--5-5-5--2--2-2-2-2--------------------|
D--7--7-7-x--2--2-2--2-2-2-2---3--3-3-3--3--3-3-3-3--------------------|
A--7--7-7-x--2--2-2--2-2-2-2---3--3-3-3--0--0-0-0-0--------------------|
D--7--7-7-x--2--2-2--2-2-2-2---3--3-3-3--------------------------------|

Проигрыш: